2011年5月25日星期三

林宥嘉-自然醒

作者: Archer12 (吉他家教招生中!!!) 看板: guitar
標題: Re: [求譜] 林宥嘉-自然醒
時間: Wed May 25 17:55:38 2011

※ 引述《chenEC (EC)》之銘言:
自然醒
曲:李拾壹 詞:黃偉文 編曲:王治平

Key:C# Capo:1 Play:C

intro:

C C/Bb
||---------------0-----------|---------------0-----------|
||--------1------------1-----|--------1------------1-----|
||------0----0------------0--|------0----0------------0--|
||----2--------2-------------|----2--------2-------------|
||--3------------------------|--1------------------------|
||---------------------------|---------------------------|


Am7 G# A#
---------------0-----------|------------------------------||
--------1------------1-----|-----------4-------------6----||
------0----0------------0--|--------5-----5-------7-----7-||
----2--------2-------------|------6-------------8---------||
--0------------------------|----6-------------8-----------||
---------------------------|--4-------------6-------------||


C C/Bb(註)
散步紐約街頭 快要吻的時候
Am7 G# A#
閃耀妳唇上的溫柔 怎麼忽然變成 電鑽鑽頭
C C/Bb
一樓四樓七樓 Stereo大合奏
Am7 G# A# C C
成年以來一直 睡不夠 幹嘛休假樓上總有人 裝修
C C Am Am
一覺~ 睡到自然醒過來 不管 這個胡鬧時代到底有多壞
F F G G
只想在潛意識 第六層內 沒有心情 不出來
C C Am Am
說來~ 這個事情也奇怪 只要三步之內有妳在
F G
我拳頭 就放開 睡得像小孩 (Am G F G)x2

C C/Bb
有人按錯門鈴 有人打錯電話
Am7
有人製造喧嘩的八卦
G# A# C
麻煩大家讓我靜一下 好嗎


C C/Bb
最近睡得很壞 最好妳搬過來



(註)
C/Bb 也可以直接用Bb試試看,個人覺得效果差不多@@~


--
民謠吉他 / Ukulele 彈唱班全面招生中!!!
*******************************************
Archer Music Studio 亞 憩 音 樂 工 作 室
FB: http://facebook.com/ArcherMusic
Blog: http://www.wretch.cc/blog/ArcherMusic
Mail: ArcherMusic.tw@gmail.com
*******************************************

沒有留言:

張貼留言